Jump to content


Please note: You can easily log in to MPN using your Facebook account!

TAB software...free.


Fumblyfingers

Recommended Posts

I found this free website for making your own TAB . So you just enter the notes in the "guitar" provided and it makes the TAB for you and then click highlight TAB and it copies it for you to paste at a forum or wherever.

 

http://tabcreator.rukind.org/#

 

Here I just did this quickly to show it...

 

G Half/Whole Scale

 

E|--------------------------------------------3--4--6-----

B|-----------------------------------3--5--6--------------

G|--------------------------3--4--6-----------------------

D|-----------------3--5--6--------------------------------

A|-----------4--5-----------------------------------------

E|--3--4--6-----------------------------------------------

 

It's pretty cool for getting down quick ideas.......I have seen you guys use something like this...I always thought you were entering each part manually by typing it. This is so fast, so easy .

 

 

Link to comment
Share on other sites



  • Replies 17
  • Created
  • Last Reply

Excellent find Fumbly! Here's a little fragment I'm working on at this very moment.

 

E|-----------------------------

B|--8--9--6--8-----6-----------

G|--------------8-----6--8-----

D|-----------------------------

A|-----------------------------

E|-----------------------------

 

 

 

Link to comment
Share on other sites

E|-------------------------------------------------------------

B|-------------------------------------------------------------

G|-------------------------------------------------------------

D|--5h7--5h7--5----------------5--------7-------7-----7--------

A|---------------7-------5--7-----5--7-------4-----5-----6-----

E|------------------8------------------------------------------

 

Not the best rhythmic places, but you'll get it. :grin:

Never argue with an idiot. They'll bring you down to their level and beat you with experience.

 

http://www.soundclick.com/bands/default.cfm?bandID=810593

 

http://www.myspace.com/dandelavega

Link to comment
Share on other sites

E|-------------------------------------------------------------

B|-------------------------------------------------------------

G|-------------------------------------------------------------

D|--5h7--5h7--5----------------5--------7-------7-----7--------

A|---------------7-------5--7-----5--7-------4-----5-----6-----

E|------------------8------------------------------------------

 

Not the best rhythmic places, but you'll get it. :grin:

 

The Ocean.

Link to comment
Share on other sites

E|-------------------------------------------------------------

B|-------------------------------------------------------------

G|-------------------------------------------------------------

D|--5h7--5h7--5----------------5--------7-------7-----7--------

A|---------------7-------5--7-----5--7-------4-----5-----6-----

E|------------------8------------------------------------------

 

Not the best rhythmic places, but you'll get it. :grin:

 

The Ocean.

 

Really? I was going for a JV lick :laugh:

Never argue with an idiot. They'll bring you down to their level and beat you with experience.

 

http://www.soundclick.com/bands/default.cfm?bandID=810593

 

http://www.myspace.com/dandelavega

Link to comment
Share on other sites

E|-------------------------------------------------------------

B|-------------------------------------------------------------

G|-------------------------------------------------------------

D|--5h7--5h7--5----------------5--------7-------7-----7--------

A|---------------7-------5--7-----5--7-------4-----5-----6-----

E|------------------8------------------------------------------

 

Not the best rhythmic places, but you'll get it. :grin:

 

The Ocean.

 

Really? I was going for a JV lick :laugh:

 

It can't be a JV lick. It requires the use of too many fingers.

 

http://i47.photobucket.com/albums/f191/kboruff/rolling.gif

 

 

Link to comment
Share on other sites

E|------------------------------------------

B|------------------------------------------

G|------------------------------------------

D|----------------0--0-----0----------------

A|-------------2--------0-----2-------------

E|--0--0--3b4--------------------3b4--0-----

 

Okay, how bout this one, BTW, i just did this one by ear an hour ago, don't know if it's completely right though.

Never argue with an idiot. They'll bring you down to their level and beat you with experience.

 

http://www.soundclick.com/bands/default.cfm?bandID=810593

 

http://www.myspace.com/dandelavega

Link to comment
Share on other sites

E|------------------------------------------

B|------------------------------------------

G|------------------------------------------

D|----------------0--0-----0----------------

A|-------------2--------0-----2-------------

E|--0--0--3b4--------------------3b4--0-----

 

Okay, how bout this one, BTW, i just did this one by ear an hour ago, don't know if it's completely right though.

 

You got me. The only thing I can think of (don't have my guitar) is "Same Old Song And Dance" by Aerosmith.

 

Link to comment
Share on other sites

Archived

This topic is now archived and is closed to further replies.

×
×
  • Create New...