Jump to content


Please note: You can easily log in to MPN using your Facebook account!

Alandria - Foo Fighters


buscha

Recommended Posts



  • Replies 21
  • Created
  • Last Reply

??

 

Wanna be a bit more specific? I personally don't know that song, and by the way people talk on this forum, not too many others will. Post a youtube link or something?

My Gear:

 

82 Gibson Explorer

Ibanez 03 JEM7VWH

PRS McCarty Soapbar

Diezel Herbert 2007

 

Peters '11 Brahms Guitar

Byers '01 Classical

Hippner 8-Str Classical

Taylor 614ce

Framus Texan

 

Link to comment
Share on other sites

I believe what Griff is getting at is that helping you with a riff like that would be cheating you. Just get stubborn and make it happen. It might take a few minutes, but the added skill and understanding that you would gain from doing it yourself would make you a better player. If becoming a better player isn't your goal and you just want to learn to play the lick, there are plenty of tabs out there. Just Google it. Sorry if I'm off with my assumptions there, Griff! :)
We cannot accelerate the growth of a tree by pulling on its branches. - Ricardo Iznaola
Link to comment
Share on other sites

I believe what Griff is getting at is that helping you with a riff like that would be cheating you. Just get stubborn and make it happen. It might take a few minutes, but the added skill and understanding that you would gain from doing it yourself would make you a better player. If becoming a better player isn't your goal and you just want to learn to play the lick, there are plenty of tabs out there. Just Google it. Sorry if I'm off with my assumptions there, Griff! :)

 

Nope, you hit the nail right on the head. :thu:

 

Training your ear is the best thing any musician can do to improve your skills, and the first step to ear training is learning how to match notes.

Link to comment
Share on other sites

I'm with the others in this. If you are looking for help with a really hard part that you can't figure out, we'll be here for you. However, this part is really simple. It's just a few notes. Use the slow down feature, available in most players, if you just can't make it out; then, figure it out one note at a time. It would take us longer to figure it out and write out the tab for you, then it would for you to do it yourself.

 

On the plus side, you will feel great about it because you figured it out yourself. It's how you develop an ear for music. It will aid you greatly when you start improvising solos.

 

 

Link to comment
Share on other sites

im happy for you buscha. If you come to a dead end or something, find an mp3 of it and put it in windows media player so that you can slow it down. Hopefully that helps?

My Gear:

 

82 Gibson Explorer

Ibanez 03 JEM7VWH

PRS McCarty Soapbar

Diezel Herbert 2007

 

Peters '11 Brahms Guitar

Byers '01 Classical

Hippner 8-Str Classical

Taylor 614ce

Framus Texan

 

Link to comment
Share on other sites

  • 4 weeks later...

Here you go:

 

Guitar 1

e ----------------------------------------------------|

B ----------------------------------------------------|

G ----------------------------------------------------|

D ----------------------------------------------------|

A ---------11--9--11--14/------------11--9-----------|

E --9--12-------------12/----9--12---------12--9-----|

 

e --------------------------------------------------|

B --------------------------------------------------|

G --------------------------------------------------|

D --------------------------------------------------|

A --------11--9--11--14/------------11--9--11------|

E -9--12-------------12/----9--12--------------12~-|

 

Guitar 2

e --------------------------------------------------|

B --------------------------------------------------|

G --------------------------------------------------|

D ----------6--4--6--------------6--4--------------|

A ---4--7-------------7\---4--7--------7--4--------|

E --------------------------------------------------|

 

e --------------------------------------------------|

B --------------------------------------------------|

G --------------------------------------------------|

D ----------6--4--6---------------6---4---6--------|

A ---4--7-------------7\---4--7----------------7-~-|

E --------------------------------------------------|

 

If you want to know what he's playing on the verse, it goes like below and not how youtubers are playing it:

 

(Palm mute):

e --------------------------------------------------|

B --------------------------------------------------|

G ---444--44444--444--33333-----------------------|

D ---xxx--xxxxx---xxx--xxxxx------------------------|

A ---444--00000--222--xxxxx-----------------------|

E -----------------000--22222-----------------------|

 

Sorry if the tab is a bit wonky!

 

Get your hooves orf my leads!
Link to comment
Share on other sites

Archived

This topic is now archived and is closed to further replies.

×
×
  • Create New...